Emery

Studying Politics

Emery

117 exibições
1st Verse
       2x     1st ending  2nd ending
eb|----------|-----------|------------|
Bb|----------|-----------|------------|
Gb|----------|-----------|--11-11-11--|
Db|--55--22--|--99---99--|---x--x--x--|
Ab|--55--22--|--99---99--|---9--9--9--|
Db|--55--22--|--99---99--|------------|

Chorus (2X)
     2x
eb|------------------------|-------------------------------------------|
Bb|------------------------|-------------------------------------------|
Gb|--------------11-11-11--|---------------------------------11-11-11--|
Db|--99999999999--x--x--x--|--222222222222*-2*-222222222222---x--x--x--|
Ab|--99999999999--9--9--9--|--222222222222*-2*-222222222222---9--9--9--|
Db|--99999999999-----------|--222222222222*-2*-222222222222------------|

Post-Chorus
                2x           1st ending   2nd ending
eb|------------------------------|-------------|-----------|
Bb|------------------------------|-------------|-----------|
Gb|------------------------------|-------------|-----------|
Db|--55xxxxxx-22xxxxxx-99xxxxxx--|--99xx-99xx--|--999-999--|
Ab|--55xxxxxx-22xxxxxx-99xxxxxx--|--99xx-99xx--|--999-999--|
Db|--55xxxxxx-22xxxxxx-99xxxxxx--|--99xx-99xx--|--999-999--|

Verse 2 
eb|------------------------|---------------------------------------|
Bb|------------------------|---------------------------------------|
Gb|------------------------|---------------------------------------|
Db|--55---22---99---99-99--|--55555555--2222222--9999999999999999--|
Ab|--55---22---99---99-99--|--55555555--2222222--9999999999999999--|
Db|--55---22---99---99-99--|--55555555--2222222--9999999999999999--|
   PM..   ..   ..   .. ..     ........  .......  ................

eb|-------------------------------|
Bb|-------------------------------|
Gb|--------------------11-11-11---|
Db|--55555555--222222---x--x--x---| 
Ab|--55555555--222222---9--9--9---|
Db|--55555555--222222-------------|
   PM........  ......

Chorus (2x)
    2x
eb|------------------------|-------------------------------------------|
Bb|------------------------|-------------------------------------------|
Gb|--------------11-11-11--|---------------------------------11-11-11--|
Db|--99999999999--x--x--x--|--222222222222*-2*-222222222222---x--x--x--|
Ab|--99999999999--9--9--9--|--222222222222*-2*-222222222222---9--9--9--|
Db|--99999999999-----------|--222222222222*-2*-222222222222------------|

Bridge 1 (4x)
eb|--------------------------------------------------------------------------|
Bb|--------------------------------------------------------------------------|
Gb|--16-16-16-16--11-11-11-11—--11-11/14-14--14-14-14-14--14-14-14-14*--14*--|
Db|---x--x--x--x---x--x--x--x----x—-x/-x--x---x--x--x--x---x--x--x--x*---x*--| 
Ab|--14-14-14-14---9--9--9--9----9—-9/12-12--12-12-12-12--12-12-12-12*--12*--|
Db|--------------------------------------------------------------------------|

Bridge 2
        8x
eb|---------------|
Bb|---------------|
Gb|--------16-----|
Db|-----16----16--| 
Ab|--14-----------|
Db|---------------|
  
  (Guitar 1) 4x
eb|--------------------------------------|
Bb|--------------------------------------|
Gb|--------------------------------------|
Db|--9999999999999999--5555555555555555--| 
Ab|--9999999999999999--5555555555555555--|
Db|--9999999999999999--5555555555555555--|

  (Guitar 2) 16x
eb|------------------|
Bb|------------------|
Gb|--16--14--16--14--|
Db|------------------| 
Ab|------------------|
Db|------------------|

Outro
eb|-----------------------------------------|---------------------|
Bb|-----------------------------------------|---------------------|
Gb|-----------------------------------------|---------------------|
Db|--55xxxxxx-22xxxxxx-99xxxxxx--99xx-99xx--|--55xxxxxx--2--2--2--|
Ab|--55xxxxxx-22xxxxxx-99xxxxxx--99xx-99xx--|--55xxxxxx--2--2--2--|
Db|--55xxxxxx-22xxxxxx-99xxxxxx--99xx-99xx--|--55xxxxxx--2--2--2--|



Enviada por Sem inscrição
Nº de acordes: 0