Eddie Vedder

Tuolumne

Eddie Vedder

124 exibições
e|-------------------------1-----1-----0-----0-------------------------------|
B|-1-----1-----3-----3-------1-----1-----1-----1-----------------------------|
G|---0-----0-----0-----0-----------------------------repeat 4x---------------|
D|---------------------------------------------------------------------------|
A|-3---3-------3---3-------3---3-------3---3---------------------------------|
E|---------------------------------------------------------------------------|

e|---------------------------------------------------------------------------|
B|-1-----1-----3-----3------------------1-----1-----3-----3-------------1/3--|
G|---2-----2-----2-----2------------------2-----2-----2-----2----------------|
D|--------------------------Play 2x ---------------------------Play 2x-------|
A|---------------------------------------------------------------------------|
E|-2---2-------2---2--------------------1---1-------1---1--------------------|

e|-------------------------3-----3-----0-----0-------------------------------|
B|-1-----1-----3-----3-------1-----1-----1-----1-----------------------------|
G|---0-----0-----0-----0-----------------------------------------------------|
D|---------------------------------------------------Play 2x-----------------|
A|-3---3-------3---3-------3---3-------3---3---------------------------------|
E|---------------------------------------------------------------------------|


e|-------------------------1-----1-----0-----0-------------------------------|
B|-1-----1-----3-----3-------1-----1-----1-----1-----------------------------|
G|---0-----0-----0-----0-----------------------------repeat 2x---------------|
D|---------------------------------------------------------------------------|
A|-3---3-------3---3-------3---3-------3---3---------------------------------|
E|---------------------------------------------------------------------------|
| 

e|---------------------------------------------------------------------------|
B|-1-----1-----3-----3------------------1-----1-----3-----3------------------|
G|---2-----2-----2-----2------------------2-----2-----2-----2----------------|
D|--------------------------Play 2x ---------------------------Play 2x-------|
A|---------------------------------------------------------------------------|
E|-2---2-------2---2--------------------1---1-------1---1--------------------|


Enviada por Sem inscrição
Nº de acordes: 0