Sem imagem

Speaking In Tongues

Eagles of Death Metal

119 exibições
Intro thingy
e|---------------------------------------------------------------------------|
B|---------------------------------------------------------------------------|
G|---------------------------------------------------------------------------|
D|--12---12-12-11-10-10-10---10-10-7-9-9--9-9-9-9--7-7-7-9-10-11-------------|
A|--12---12-12-11-10-10-10---10-10-7-9-9--9-9-9-9--7-7-7-9-10-11-------------|
E|--10---10-10--9--8--8--8----8--8-5-7-7--7-7-7-7--5-5-5-7--8--9-------------|

e|---------------------------------------------------------------------------|
B|---------------------------------------------------------------------------|
G|---------------------------------------------------------------------------|
D|--12---12-12-11-10-10-10---10-10-7-9-9--9-9-9-9--7-7-7-9-10-11-12-12-------|
A|--12---12-12-11-10-10-10---10-10-7-9-9--9-9-9-9--7-7-7-9-10-11-12-12-------|
E|--10---10-10--9--8--8--8----8--8-5-7-7--7-7-7-7--5-5-5-7--8--9-10-10-------|



During the little riff solo part i think he just strums the A chord. 

e|---------------------------------------------------------------------------|
B|---------------------------------------------------------------------------|
G|---------------------------------------------------------------------------|
D|--7------------------------------------------------------------------------|
A|--7------------------------------------------------------------------------|
E|--5--(a few times)---------------------------------------------------------|

** I havent figured out the little riff part...i believe it is somewhere on the E scale
or penatonic or somethin. if i figure it out, ill fix it. 

Verses.....(palm mute the 1st few times...when they start singing 'toot toot' or'woo' or 'scoot'...
i dont know what theyre saying...but that part is not palm muted. )

e|---------------------------------------------------------------------------|
B|---------------------------------------------------------------------------|
G|------------?--------------------------------------------------------------|
D|--7-7-7-9-(9-9)-10-11------------------------------------------------------|
A|--7-7-7-9-(7-7)-10-11------------------------------------------------------|
E|--5-5-5-7-(7-7)-8--9-------------------------------------------------------|


e|---------------------------------------------------------------------------|
B|-------17-----17-----------------------------------------------------------|
G|----17----17-----17-14-----------------------------------------------------|
D|---------------------------------------------------------------------------|
A|---------------------------------------------------------------------------|
E|---------------------------------------------------------------------------|



**he plays some random notes up in the 17th fret area during parts of the song..
try to just play along with it. 


After the whole gibberish part and stuff it goes back to this.
e|---------------------------------------------------------------------------|
B|---------------------------------------------------------------------------|
G|---------------------------------------------------------------------------|
D|--12---12-12-11-10-10-10---10-10-7-9-9--9-9-9-9--7-7-7-9-10-11-------------|
A|--12---12-12-11-10-10-10---10-10-7-9-9--9-9-9-9--7-7-7-9-10-11-------------|
E|--10---10-10--9--8--8--8----8--8-5-7-7--7-7-7-7--5-5-5-7--8--9-------------|

e|---------------------------------------------------------------------------|
B|---------------------------------------------------------------------------|
G|---------------------------------------------------------------------------|
D|--12---12-12-11-10-10-10---10-10-7-9-9--9-9-9-9--7-7-7-9-10-11-------------|
A|--12---12-12-11-10-10-10---10-10-7-9-9--9-9-9-9--7-7-7-9-10-11-------------|
E|--10---10-10--9--8--8--8----8--8-5-7-7--7-7-7-7--5-5-5-7--8--9-------------|


**then in between that stuff the solo is played. here it is. play it 2x. 
(twice)
e|---------------------------------------------------------------------------|
B|---------------------------------------------------------------------------|
G|-----14----14----14----------14----14----14----14---------14---------------|
D|--12----12----14-----14--14-----13----13----14-----14--14------------------|
A|---------------------------------------------------------------------------|
E|---------------------------------------------------------------------------|


then its back to this 
e|---------------------------------------------------------------------------|
B|---------------------------------------------------------------------------|
G|------------?--------------------------------------------------------------|
D|--7-7-7-9-(9-9)-10-11------------------------------------------------------|
A|--7-7-7-9-(7-7)-10-11------------------------------------------------------|
E|--5-5-5-7-(7-7)-8--9-------------------------------------------------------|


then they play this little riff thingy (i cant seem to figure it out)
but it starts off kinda like this

e|-12----12----12(bend to 13?)-----------------------------------------------|
B|----14----14---------------------(crap, thats all i can figure out)--------|
G|---------------------------------------------------------------------------|
D|---------------------------------------------------------------------------|
A|---------------------------------------------------------------------------|
E|---------------------------------------------------------------------------|

ends with: 

e|---------------------------------------------------------------------------|
B|---------------------------------------------------------------------------|
G|---------------------------------------------------------------------------|
D|----7--7-------------------------------------------------------------------|
A|----7--7-------------------------------------------------------------------|
E|----5--5-------------------------------------------------------------------|





| /  slide up
| \  slide down
| h  hammer-on
| p  pull-off
| ~  vibrato
| +  harmonic
| x  Mute note


Enviada por Sem inscrição
Nº de acordes: 0