d = strum down
u = strum up

Intro: 
    C              C7m9           Am             AmG
    d  d u  u d u  d  d u  u d u  d  d u  u d u  d  d u  u d u
E---0--0-0--0-0-0--0--0-0--0-0-0--0--0-0--0-0-0--0--0-0--0-0-0---|
B---1--1-1--1-1-1--1--1-1--1-1-1--1--1-1--1-1-1--1--1-1--1-1-1---|
G---0--0-0--0-0-0--0--0-0--0-0-0--2--2-2--2-2-2--2--2-2--2-2-2---|
D---2--2-2--2-2-2--0--0-0--0-0-0--2--2-2--2-2-2--2--2-2--2-2-2---|
A---3--3-3--3-3-3--2--2-2--2-2-2--0--0-0--0-0-0--0--0-0--0-0-0---|
E------------------------------------------------3--3-3--3-3-3---|
    
    F                             Fm		 
    d  d u  u d u  d  d u  u d u  d  d u  u d u  d  d u  u d u
E---1--1-1--1-1-1--1--1-1--1-1-1--1--1-1--1-1-1--1--1-1--1-1-1---|
B---1--1-1--1-1-1--1--1-1--1-1-1--1--1-1--1-1-1--1--1-1--1-1-1---|
G---2--2-2--2-2-2--2--2-2--2-2-2--1--1-1--1-1-1--1--1-1--1-1-1---|
D---3--3-3--3-3-3--3--3-3--3-3-3--3--3-3--3-3-3--3--3-3--3-3-3---|
A---3--3-3--3-3-3--3--3-3--3-3-3--3--3-3--3-3-3--3--3-3--3-3-3---|
E---1--1-1--1-1-1--1--1-1--1-1-1--1--1-1--1-1-1--1--1-1--1-1-1---|


Verse:
    C               C7m9            Am              AmG 
    d  d u  u d u   d  d u  u d u   d  d u  u d u  d  d u  u d u
E---0--0-0--0-0-0---0--0-0--0-0-0---0--0-0--0-0-0--0--0-0--0-0-0---|
B---1--1-1--1-1-1---1--1-1--1-1-1---1--1-1--1-1-1--1--1-1--1-1-1---|
G---0--0-0--0-0-0---0--0-0--0-0-0---2--2-2--2-2-2--2--2-2--2-2-2---|
D---2--2-2--2-2-2---0--0-0--0-0-0---2--2-2--2-2-2--2--2-2--2-2-2---|
A---3--3-3--3-3-3---2--2-2--2-2-2---0--0-0--0-0-0--0--0-0--0-0-0---|
E--------------------------------------------------3--3-3--3-3-3---|


    F                            Fm		 
    d  d u  u d u  u d u  u d u  d  d u  u d u  u d u  u d u
E---1--1-1--1-1-1--1-1-1--1-1-1--1--1-1--1-1-1--1-1-1--1-1-1---|
B---1--1-1--1-1-1--1-1-1--1-1-1--1--1-1--1-1-1--1-1-1--1-1-1---|
G---2--2-2--2-2-2--2-2-2--2-2-2--1--1-1--1-1-1--1-1-1--1-1-1---|
D---3--3-3--3-3-3--3-3-3--3-3-3--3--3-3--3-3-3--3-3-3--3-3-3---|
A---3--3-3--3-3-3--3-3-3--3-3-3--3--3-3--3-3-3--3-3-3--3-3-3---|
E---1--1-1--1-1-1--1-1-1--1-1-1--1--1-1--1-1-1--1-1-1--1-1-1---|


Chorus:
    C                            E7
    d  d u  u d u  u d u  u d u  d  d u  u d u  u d u  u d u
E---0--0-0--0-0-0--0-0-0--0-0-0--0--0-0--0-0-0--0-0-0--0-0-0---|
B---1--1-1--1-1-1--1-1-1--1-1-1--3--3-3--3-3-3--3-3-3--3-3-3---|
G---0--0-0--0-0-0--0-0-0--0-0-0--1--1-1--1-1-1--1-1-1--1-1-1---|
D---2--2-2--2-2-2--2-2-2--2-2-2--2--2-2--2-2-2--2-2-2--2-2-2---|
A---3--3-3--3-3-3--3-3-3--3-3-3--2--2-2--2-2-2--2-2-2--2-2-2---|
E--------------------------------0--0-0--0-0-0--0-0-0--0-0-0---|

    Am             AmG            D
    d  d u  u d u  d  d u  u d u
E---0--0-0--0-0-0--0--0-0--0-0-0--2---------|
B---1--1-1--1-1-1--1--1-1--1-1-1--3---------|
G---2--2-2--2-2-2--2--2-2--2-2-2--2---------|
D---2--2-2--2-2-2--2--2-2--2-2-2--0---------|
A---0--0-0--0-0-0--0--0-0--0-0-0------------|
E------------------3--3-3--3-3-3------------|

    F                            Fm		 
    d  d u  u d u  u d u  u d u  d  d u  u d u  u d u  u d u
E---1--1-1--1-1-1--1-1-1--1-1-1--1--1-1--1-1-1--1-1-1--1-1-1---|
B---1--1-1--1-1-1--1-1-1--1-1-1--1--1-1--1-1-1--1-1-1--1-1-1---|
G---2--2-2--2-2-2--2-2-2--2-2-2--1--1-1--1-1-1--1-1-1--1-1-1---|
D---3--3-3--3-3-3--3-3-3--3-3-3--3--3-3--3-3-3--3-3-3--3-3-3---|
A---3--3-3--3-3-3--3-3-3--3-3-3--3--3-3--3-3-3--3-3-3--3-3-3---|
E---1--1-1--1-1-1--1-1-1--1-1-1--1--1-1--1-1-1--1-1-1--1-1-1---|

    C                            G
    d  d u  u d u  u d u  u d u  d  d u  u d u  u d u  u d u
E---0--0-0--0-0-0--0-0-0--0-0-0--3--3-3--3-3-3--3-3-3--3-3-3---|
B---1--1-1--1-1-1--1-1-1--1-1-1--0--0-0--0-0-0--0-0-0--0-0-0---|
G---0--0-0--0-0-0--0-0-0--0-0-0--0--0-0--0-0-0--0-0-0--0-0-0---|
D---2--2-2--2-2-2--2-2-2--2-2-2--0--0-0--0-0-0--0-0-0--0-0-0---|
A---3--3-3--3-3-3--3-3-3--3-3-3--2--2-2--2-2-2--2-2-2--2-2-2---|
E--------------------------------3--3-3--3-3-3--3-3-3--3-3-3---|
    

Solo:

E-----0h1p0---0h1p0---0h1p0---0h1p0---0-1-1/3-1-0---0-------|
B-----------3-------3-------3-------3-------------3---3-1---|
G-----------------------------------------------------------|
D-----------------------------------------------------------|
A-----------------------------------------------------------|
E-----------------------------------------------------------|

E----------------------------|-----------------------------|
B-----1h3-4b5-5r4-1-3-1---1--|------1-----3-----5------6---|
G-----------------------2----|--1/2---2/3---3/5---5/7------|
D----------------------------|-----------------------------|
A----------------------------|-----------------------------|
E----------------------------|-----------------------------|

E---------------------------------------------------------------------|
B---------------------------------------------------------------------|
G------9-10p9-7-9-10/12---10-10-10p9-7-7p9--7-7p5---5-7b8r7-7p5---5---|
D-------------------------------------------------7-------------7-----|
A---------------------------------------------------------------------|
E---------------------------------------------------------------------|

E--------------------------------------------------------|
B----------------------------13---13-16\15-13----13-13---|
G-------5-7-9-10/12-12-12-14------------------14---------|
D-----7--------------------------------------------------|
A--------------------------------------------------------|
E--------------------------------------------------------|

E--------------16/17--17\15--15-12------------------|
B--------13------------------------15/16-15-13------|
G-----14----14---------------------------------14---|
D---------------------------------------------------|
A---------------------------------------------------|
E---------------------------------------------------|

E----------------------------------------------------|
B-----13-------------------------------------13-13---|
G--------14-12-14-9-12-9-9\7-5---5-7/9-12/14---------|
D------------------------------7---------------------|
A----------------------------------------------------|
E----------------------------------------------------|

E---------------------15--------------------------------|
B--------13-15-13-15b----16\15-13-15---13-15p13----13---|
G-----14----------------------------------------14------|
D-------------------------------------------------------|
A-------------------------------------------------------|
E-------------------------------------------------------|

E-----0h1p0--------------0h1p0-----------|
B-----------3-1-3----1-3-------3-3b4r3---|
G------------------2---------------------|
D----------------------------------------|
A----------------------------------------|
E----------------------------------------|

Outro:
    F                             Fm		                C
    d  d u  u d u  d  d u  u d u  d  d u  u d u  d  d u  u d u  d
E---1--1-1--1-1-1--1--1-1--1-1-1--1--1-1--1-1-1--1--1-1--1-1-1--0---|
B---1--1-1--1-1-1--1--1-1--1-1-1--1--1-1--1-1-1--1--1-1--1-1-1--1---|
G---2--2-2--2-2-2--2--2-2--2-2-2--1--1-1--1-1-1--1--1-1--1-1-1--0---|
D---3--3-3--3-3-3--3--3-3--3-3-3--3--3-3--3-3-3--3--3-3--3-3-3--2---|
A---3--3-3--3-3-3--3--3-3--3-3-3--3--3-3--3-3-3--3--3-3--3-3-3--3---|
E---1--1-1--1-1-1--1--1-1--1-1-1--1--1-1--1-1-1--1--1-1--1-1-1------|


Order:
Intro
Verse x2
Chorus
Verse x2
Chorus
Solo
Chorus
Outro


Enviada por Sem inscrição
Nº de acordes: 9