Deborah Blando

When You Say Nothing At All

Deborah Blando

353 exibições
Ronan Keating & Deborah Blando
Tom: G
Intro: 
--------------------------------2-3----------
------------3--------------------------------
-----------------0----------2----------------
--------0---------------0--------------------
---------------------------------------------
----3----------------------------------------

--------------------------------2h3----------
----------2------------------3---------------
---------------0----------2------------------
-------2--------------0----------------------
----3----------------------------------------
---------------------------------------------

--------------------------------2-3----------
------------3--------------------------------
-----------------0----------2----------------
--------0---------------0--------------------
---------------------------------------------
----3----------------------------------------

--------------------------------2h3----------
----------2------------------3---------------
---------------0----------2------------------
-------2--------------0----------------------
----3----------------------------------------
---------------------------------------------
G     D          C             D           G     D C D
It's amazing how you can speak right to my heart
G       D        C             D            G    D C D
Without saying a word, you can light up the dark
---------------------0-----------------------
------------3-----------------3--------------
-----------------0-------0--------0----------
--------0------------------------------------
---------------------------------------------
----3----------------------------------------

---------------------0-----------------------
------------3----------------3---------------
-----------------0-----0---------0-----------
--------2------------------------------------
----3----------------------------------------
---------------------------------------------

------------------------------------2-3------
-------------3-------------------------------
------------------0-------------2------------
---------0-----------------0-----------------
---------------------------------------------
----3----------------------------------------

------------------------------------------0-------------
------------3--------------------3--------------3-------
----------------0-----------2-------2------2-------2----
---------2--------------0-------------------------------
-----3--------------------------------------------------
--------------------------------------------------------
-----------------------0---------------------
--------------3----------------3-------------
-------------------0------0--------0---------
---------2-----------------------------------
----3----------------------------------------
---------------------------------------------
C                    D
Try as I may, I could never explain
G      D             C           D 
What I hear when you don't say a thing

G                 D             C             D
The smile on your face lets me know that you need me
G                       D           C            D 
There's a truth in your eyes saying you'll never leave me
G                 D                C                  D    C D
The touch of your hand says you'll catch me if ever I fall
C               D                       G    D C D
You say it best when you say nothing at all
-----------------------------------3---
------------3------------------3-------
----------------0----------2-----------
--------0--------------0---------------
---------------------------------------
----3----------------------------------

------------------0-------------------------0---------------
-----------3-----------3--------------3-------3-------------
---------------0----0----0--------2-----2-------2-----------
-------2------------------------0--------------------0------
----3-------------------------------------------------------
------------------------------------------------------------

----------------------------2-3--------
-----------3---------------------------
---------------0--------2--------------
-------0-------------0-----------------
---------------------------------------
----3----------------------------------

--------------------0----------------------------------------
--------------3------------3---------------------------------
-----------------0-----0-----0-------------------------------
-------------------------------------------------------------
----------3--------------------------------------------------
-------------------------------------------------------------
G       D          C             D          G     D C D
All day long I can hear people talking out loud
G   D        C            D         G         D C D
But when you hold me, you drown out the crowd
C                    D
Try as they may, they could never define 
G      D             C           D 
What's being said between your heart and mine


G                 D             C             D
The smile on your face lets me know that you need me
G                       D           C            D 
There's a truth in your eyes saying you'll never leave me
G                 D                C                  D    C D
The touch of your hand says you'll catch me if ever I fall
G                 D             C             D
The smile on your face lets me know that you need me
G                       D           C            D 
There's a truth in your eyes saying you'll never leave me
G                 D                C                  D    C D
The touch of your hand says you'll catch me if ever I fall
C               D                       G    D C D
You say it best when you say nothing at all


G                 D             C             D
The smile on your face lets me know that you need me
G                       D           C            D 
There's a truth in your eyes saying you'll never leave me
G                 D                C                  D    C D
The touch of your hand says you'll catch me if ever I fall
C               D                       G    D C D
You say it best when you say nothing at all
--------------------------------2-3----------
------------3--------------------------------
-----------------0----------2----------------
--------0---------------0--------------------
---------------------------------------------
----3----------------------------------------

--------------------------------2h3----------
----------2------------------3---------------
---------------0----------2------------------
-------2--------------0----------------------
----3----------------------------------------
---------------------------------------------

--------------------------------2-3----------
------------3--------------------------------
-----------------0----------2----------------
--------0---------------0--------------------
---------------------------------------------
----3----------------------------------------

--------------------------------2h3----------
----------2------------------3---------------
---------------0----------2------------------
-------2--------------0----------------------
----3----------------------------------------
---------------------------------------------


Enviada por Sem inscrição
Nº de acordes: 3