Calcinha Preta

Cobertor

Calcinha Preta

1.446 exibições
Tom: C
Intro:  Ab Fm Bbm Eb (2X junto com o solo)

Solo: 
e|-15-15-13-13-12-12----12p13h12---------------------------13-12--------17-17-17-|
B|-------------------15----------15-13-------13------13----------15-13-----------|
G|-------------------------------------14-14---14-14----14-----------------------|
D|-------------------------------------------------------------------------------|
A|-------------------------------------------------------------------------------|
E|-------------------------------------------------------------------------------|

e|-15-15-15--13-13-13--12-12-----17b-15--12----12-13-12--------------------------|
B|---------------------------15------------15----------15-13---------------------|
G|-------------------------------------------------------------------------------|
D|-------------------------------------------------------------------------------|
A|-------------------------------------------------------------------------------|
E|-------------------------------------------------------------------------------|

                       F
Como é que você foi embora
                     C
Sem dizer pelo menos adeus
                   F
E fez sofrer tanto assim
 G                         C
O coração apaixonado por você?
                       F
Como é que você depois liga
                        C 
Pra dizer que esta arrependida
                    F
E foi embora, mas que vai voltar
         G                       C   G7
Pedindo pro meu coração o seu lugar?
        Am                  
Ah, ah, ah, que pena, o meu coração
           Em        
Não é mais teu!
                                 Dm
Mesmo que fosse nunca mais seria seu
                                      G
Você se foi, nem quis saber se estava frio
   F       G
Eu achei cobertor          
       Em         Am
Que me deu tanto amor                 2x
       Dm          G
E que nunca deixa o frio
              C  C7
Tomar conta de mim...  

Solo

**Repetir tudo mas na segunda parte o refrão é cantado quatro vezes
  e em seguida toca-se o solo mais uma vez.**  


Enviada por Sem inscrição
Nº de acordes: 12