Calcinha Preta

Agora Estou Sofrendo

Calcinha Preta

3.277 exibições
     Intro: ( Am F Dm G ) 2x
  Intro: 

	 E|------12----10----8------7-----5-----3-----1-----1-----------------5-----5------7--
	 B|------13----12----10-----8-----6-----5-----3-----3-------1/3------6-----6------8---

	 E|------12----10----8------7-----5-----3-----1-----1-----------------5----------3----
	 B|------13----12----10-----8-----6-----5-----3-----3------1/3-------6----5-----------

    F9                                                 Dm
Não há amor para min não
Você estva mentindo   1° Arranjo

					E|---5--5--5--------------8             
					B|--------------8--6--6---8


    F9                                                  Am
Diga logo que não me amou
                              C                     F	
Que não gostou de mim
	         G                      ( Am F Dm G )
Não sente amor por mim
                                                                                         2° Riff do Refrão
		 		 E|------12----10----8------7-----5-----3-----1-----1-----------------5----------3----
				 B|------13----12----10-----8-----6-----5-----3-----3------1/3-------6----5----------


     F9                                                  Dm
Quais as armas que encontram
    Pra fazre seus encantos		2° Arranjo

						E|---8-8-8--7--5--7h8--7h8
						B|------------------------



     F9                                         Am   
Derramar seu amor em mim
                              C                     F             
Mas não gostou de mim
                             G
Não sente amor

    C                            Dm
Me fere e me risca de amor
     Am
Me foge não me alimenta 
     F                               C             Bb
Não sabe que já me conquistou
                         G
Agora estou sofrendo


              Arranjo depois do refrão

              



 	( F9 Dm )  

 Arranjo depois do refrão

 	D|---3h5---3---5/7------

	E|----7h8---7--- -5-----------8----------
	B|----------------------6-------8--------


   F9                                                 Dm
Não há amor para min não
Você estva mentindo
    F9                                                  Am
Diga logo que não me amou
                            C                      F9
Que não gostou de mim

     
                                                      Dm
Quais as armas que encontram
    Pra fazre seus encantos
        F9                                              Am   
Derramar seu amor em mim
           

                              C                     F             
Mas não gostou de mim
                             G
Não sente amor

  

               C                         Dm
Me fere e me risca de amor
           Am
Me foge não me alimenta 
              F                     C             Bb
Não sabe que já me conquistou
                         G
Agora estou sofrendo










Solo:

Solo:

e|------------------------------------------------------------8--7--------------------------------------------------------------
B|-----------5--8--8/10----8--6--8/10----10--10--10-----------------------------------------------------------------------
G|---5--7-----------------------------------------------------------------------------------------------------------------------

Obs.: Essa parte é um Sweep

e|-----------5-h-8-p-5---------------------------------7-h-10-p-7-----------------------------------------------------------
B|-------6---------------6--------------------------8------------------8-----------8-------------------------------------------
G|---5----------------------5-------------------7---------------------------7--------------------------------------------------

e|---10--12--8--10--7--8/10--10--8--7-------7--8-------------------------------------------------------------------------
B|--------------------------------------------8-----------10--------------------------------------------------------------------

e|---7--8-----8/10---------12/13-----13--13--13--12--10-----------------------------------------------------------------
B|---------8----------10-----------------------------------------13------------------------------------------------------------

e|-------------------------------------------------------------------------------10--12--13/15--13--12-----------------------
B|---------------------------------------------------------------10--12--13---------------------------------15--13--12--13-
G|-----------------------------------------------9--10--12----------------------------------------------------------------------
D|------------------8--10--12---8--10--12------------------------------------------------------------------------------------
A|---8--10--12------------------------------------------------------------------------------------------------------------------




     
               C                         Dm
Me fere e me risca de amor
           Am
Me foge não me alimenta 
              F                     C             Bb
Não sabe que já me conquistou
                         G
Agora estou sofrendo
                 
                    




Arranjo Final:

e|---7/8--7---------------------------------8--------8------
B|--------------8--8--6--5------------8----------8----------
G|----------------------------7/9---------------------------





Acordes:

Dedilhado é tocado dessa forma:

       F9                                    Dm  

e|-----------------8          e|-----------------5      
B|-----------------8          B|-----------------6    
G|-----------10               G|-----------7
D|------10                    D|------7 
A|--8                         A|--5      


Enviada por Sem inscrição
Nº de acordes: 8