Sem imagem

Slammin

Buckcherry

90 exibições
Email: *

It took me a while to get this song down but I think I got it down pretty good.  This is 
for the rhythm guitar. This is my favorite song off of Timebomb. Have fun.


Tuning: Open G Tuning.

|-------------------|
|---0----10----12---|
|---0----10----12---|
|---0----10----12---|
|---0----10----12---|
|-------------------|

Main Riff & Chorus Riff - Repeat This riff 7x then play these chords right before the 
riff.
|-----------------------------------------| |--------------|
|-----------------------------------------|o|--5--6--6--5--|
|-----------------------------------------| |--5--5--5--5--|
|5--0--3--0--2--0-----5--0--3--0--2--0----| |--5--7--7--5--|
|------------------0--------------------0-|o|--5--5--5--5--|
|-----------------------------------------| |--------------|

Verse Riff - Listen the the song to get the timing down right!  Play this verse Riff 
then go back and play the chorus Riff.
|----------------------------------------------|
|-5--0--0---3--0--0---2--0--0---2--5--6--6--5--|
|-5--0--0---3--0--0---2--0--0---2--5--5--5--5--|
|-5--0--0---3--0--0---2--0--0---2--5--7--7--5--|
|-5--0--0---3--0--0---2--0--0---2--5--5--5--5--|
|----------------------------------------------|

Rhythm guitar for the solo. Play this three times.
|-----------------------------------------------|
|-8-8-8-8--10-10-10-10--12-12-12-12-12-12-12-12-|
|-8-8-8-8--10-10-10-10--12-12-12-12-12-12-12-12-|
|-8-8-8-8--10-10-10-10--12-12-12-12-12-12-12-12-|
|-8-8-8-8--10-10-10-10--12-12-12-12-12-12-12-12-|
|-----------------------------------------------|

Rhythm guitar for the solo continued. On the final pass of the solo rhythm you'll end on 
C chord.
|---------------------------------------|
|-8-8-8-8--10-10-10-10--5-5-5-5-5-5-5-5-|
|-8-8-8-8--10-10-10-10--5-5-5-5-5-5-5-5-|
|-8-8-8-8--10-10-10-10--5-5-5-5-5-5-5-5-|
|-8-8-8-8--10-10-10-10--5-5-5-5-5-5-5-5-|
|---------------------------------------|

This is a really cool part of the song.  I use my fingers to pluck the double stops.  Be 
to listen to the record to get the timing down correctly.
|----------------------------------------------------------------|
|----------------------------------------------------------------|
|-10--12-12-12-12---12-15-12-12--12--10-12-10-10-12-10--5-7-7-5--|
|-10--12-12-12-12---12-15-12-12--12--10-12-10-10-12-10--5-7-7-5--|
|----------------------------------------------------------------|
|----------------------------------------------------------------|

Thanks for looking at my tab!!  Take care have fun and GOD bless everyone!!


SLAMIN

(Lyrics by Josh Todd)
Your like a stone baby all alone baby come alive when you’re high
I’m on the road steady hot as hell ready I’m the next one in line

Slamin, it’s your back side baby off the hook and so out of line
Slamin, is your top side heavy damn you got to give me some time

We gotta sex lady stone cold crazy let me come from behind
I’m on the phone beggin give me a piece of heaven I’m only here for the night

Slamin, it’s your back side baby off the hook and so out of line
Slamin, is your top side heavy damn you got to give me some time

After the last song she comes around Saturdays, holidays, we’re always making the rounds

I need some face woman please be my dirty lover just do wrong don’t do right
I’m on the stage burnin keep the heads turnin give it all for the life


Enviada por Sem inscrição
Nº de acordes: 2