Sem imagem

Bridge To Cross

Black Label Society

168 exibições
Tom: Em
Intro: Em A

AFINAÇÃO 1/2 TOM ABAIXO

E|--------0---------0--------------0------------------0--------0-----------------0--------|
B|-----0-----0---------0-------0-------2---------0------0---------0-------0--------2------|
G|---0-----------0----------0-----------2-------0------------0----------0------------2----|
D|---------------------------------------2----------------------------------------------2-|
A|----------------------------------------------------------------------------------------|
E|----------------------------------------------------------------------------------------|
Em  D  Bm  Em  C  Bm  Em e volta pro dedilhado

Hands on the wheel
All is straight ahead
Left behind
Second guessing all that I once said 
C                   Bm
I once said, ohhh...
C                    Bm
I once said, ohhh...
Em 		D 		Bm> 	Em> 
My spirit is bent and there's blood on my hands
C 			Bm> 			Em>
The more I'm down, the less I understand
Once so found, now so lost
I ask no questions,
There's just one more bridge to cross.
(volta no dedilhado)
Always black and white
Would change it if I could
I'll take what I'm handed
Whether it's damned or if it's good
C		Bm
If it's good, ohh...
C		Bm
If it's good, ohh...

My spirit is bent and there's blood on my hands
The more I'm down, the less I understand
Once so found, now so lost
I ask no questions,
There's just one more bridge to cross.

Riff antes do solo

E|----------------------------|
B|---12~----------------------|
G|-------14~--12~--14~--13~---|

Dedilhado

My spirit is bent and there's blood on my hands
The more I'm down, the less I understand
Once so found, now so lost
I ask no questions,
there's just one more bridge to cross.


Enviada por Sem inscrição
Nº de acordes: 5