Bjork

Jóga

Bjork

163 exibições
Intro: 

E|-----0------------------|--0------------------|
B|--4---4-2--0--2--0--2---|4--4-2--0--2----4---6|
G|------------------------|----------------4---6|
D|------------------------|---------------------|
A|------------------------|---------------------|
E|------------------------|---------------------|

Acordes:

G#5 A5 B5 C#5

------------------------------------------------

G#5             A5     B5
all the accidents that happen 
A5
follow the dot 
G#5        A5   B5
coincidence makes sense 
A5
only with you 
G#5            A5      B5
you don't have to speak - i feel 
 C#5 A5   F#5
emotional landscapes 
 B5  C#5   A5
they puzzle me
A5
then the riddle gets solved and you push me up to this : 

REFRÃO:

E|--0-----------|--0-----------|--0-(H)-12--11-|--7--9--5--7---|
B|-----4--2--0--|-----4--2--0--|--------------4|---------------|
G|--------------|--------------|---------------|---------------|
D|--------------|--------------|---------------|---------------|
A|--------------|--------------|---------------|---------------|
E|--------------|--------------|---------------|---------------|

E|----------------|--4--2--4--7--|
B|R-4-2-4--0--2--4|--------------|
G|----------------|--------------|
D|----------------|--------------|
A|----------------|--------------|
E|----------------|--------------|

Acordes: E G# A G#

state of emergency
how beautiful to be!
state of emergency
is where i want to be

(Após o refrão, tocar estes compassos:)

E|--9--7--------|--9--------7-|--0------------------|
B|--------R---2-|------2------|4--4-2--0--2----4---6|
G|--------------|-------------|----------------4---6|
D|--------------|-------------|---------------------|
A|--------------|-------------|---------------------|
E|--------------|-------------|---------------------|
                               
G#5      A5  
all that no-one sees 
B5
you see
A5 
what's inside of me
G#5          A5        B5 
every nerve that hurts you heal 
A5
deep inside of me, oh!
G#5            A5       B5
you don't have to speak - i feel 
C#5 A5   F#5
emotional landscapes 
B5  C#5   A5
they puzzle me 
F#5
confuse
B5 C#5  A5
yeaaaaaaahhh
A5
then the riddle gets solved and you push me up to this : 

(Repetir refrão até acabar, porém nao é tocado os acordes da base, so o solo...)

state of emergency 
how beautiful to be! 
state of emergency 
is where i want to be 

state of emergency... 

state of emergency...


Ps: Essa é minha favorita da björk sendo 100% cifrada por mim.
    Assim como "Pluto" não sei se está totalmente correta, se tiver
    algo errado, por favor me deem uns toques :)


Enviada por amanda-leal
Nº de acordes: 8