Adele

Someone Like You

Adele

86.407 exibições
Capotraste 2ª casa

Tom: G

Intro / Versos: 
  G
e-----------------------------------------
B-----3-------3-------3-------3-----------
G---4---4---4---4---4---4---4---4---------
D-----------------------------------------
A-----------------------------------------
E-3-------3-------3-------3---------------

  G/F#
e-----------------------------------------
B-----3-------3-------3-------3-----------
G---4---4---4---4---4---4---4---4---------
D-----------------------------------------
A-----------------------------------------
E-2-------2-------2-------2---------------

  Em
e-----0-------0-------0-------0-----------
B---0---0---0---0---0---0---0---0---------
G-----------------------------------------
D-2-------2-------2-------2---------------
A-----------------------------------------
E-----------------------------------------

  C7+
e-----0-------0-------0-------0-----------
B---0---0---0---0---0---0---0---0---------
G-----------------------------------------
D-----------------------------------------
A-3-------3-------3-------3---------------
E-----------------------------------------

Pré-Refrão:
  D9/F#           Em7
e-----------------------------------------
B-----3-------3-------3-------3-----------
G---2---2---2---2---0---0---0---0---------
D-----------------------------------------
A-----------------------------------------
E-2-------2-------0-------0---------------

  C               C
e-----------------------------------------
B-----1-------1-------1-------1-----------
G---0---0---0---0---0---0---0---0---------
D-----------------------------------------
A-3-------3-------3-------3---------------
E-----------------------------------------

  D9/F#            Em7
e-----------------------------------------
B-----3-------3-------3-------3-----------
G---2---2---2---2---0---0---0---0---------
D-----------------------------------------
A-----------------------------------------
E-2-------2-------0-------0---------------

  C               C7+
e-----------------------------------------
B-----1-------1-------0-------0-----------
G---0---0---0---0---0---0---0---0---------
D-----------------------------------------
A-3-------3-------3-------3---------------
E-----------------------------------------

  C                
e-----------------------------------------
B-----1-------1---------------------------
G---0---0---0---0-------------------------
D-----------------------------------------
A-3-------3-------------------------------
E-----------------------------------------

Refrão:
  G                D            
e-----3--------3-------2-------2----------
B---3---3----3---3---3---3---3---3--------
G-----------------------------------------
D------------------0-------0--------------
A-----------------------------------------
E-3--------3------------------------------ 

  Em7             C9            
e-----3-------3-------3-------3-----------
B---3---3---3---3---3---3---3---3---------
G-----------------------------------------
D-2-------2-------------------------------
A-----------------3-------3---------------
E----------------------------------------- 

Verso 1:
G                G/F# 
I heard that you´re settled down 
        Em 
That you found a girl 
          C 
And you´re married now 

  G              G/F# 
I heard that your dreams came true 
         Em 
Guess she gave you things 
        C 
I didn´t give to you 

   G                   G/F# 
Old friend why are you so shy 
        Em 
It ain´t like you to hold back 
  C 
Or hide from life 

Pré-Refrão:
  D9/F#                      Em                 C 
I hate to turn up out of the blue uninvited but 

I couldn´t stay away I couldn´t fight it 
    D9/F# 
I´d hoped you´d see my face 
    Em                             C           C7+    C 
And that you´d be reminded that for me it isn´t over 

Refrão:
G            D                  Em7 C9 
Every night I find someone like you 
       G               D        Em7 C9 
I wish nothing but the best for you too 
      G           D        Em7        C9 
Don´t forget me I beg I re-member you said 
             G                 D                     Em7    C9 
Sometimes it lasts in love but sometimes it hurts in-stead 
             G                 D                     Em7   C9 
Sometimes it lasts in love but sometimes it hurts instead, yeah 

Verso 2:
G              G/F# 
 You´d know how time flies 
    Em 
Only yesterday 
       C 
was the time of our lives 

       G 
We were born and raised 
    G/F# 
In a summer haze 
     Em                     C 
Bound by the surprise of our glory days 

Pré-Refrão:
  D9/F#                      Em                 C 
I hate to turn up out of the blue uninvited but 

I couldn´t stay away I couldn´t fight it 
    D9/F# 
I´d hoped you´d see my face 
    Em                             C           C7+    C 
And that you´d be reminded that for me it isn´t over 

Refrão:
G            D                  Em7 C9 
Every night I find someone like you 
       G               D        Em7 C9 
I wish nothing but the best for you too 
      G           D        Em7        C9 
Don´t forget me I beg I re-member you said 
             G                 D                     Em7    C9 
Sometimes it lasts in love but sometimes it hurts in-stead, yeah 

Ponte:
D9/F# 
Nothing compares no worries or cares 
Em7 
Regrets and mistakes their memories make 
C7+
Who would have known how 
       Am    G/B        C9 
Bitter-sweet this would taste 

Refrão:
G              D                  Em7 C9 
Never mind I’ll find someone like you 
       G               D        Em7 C9 
I wish nothing but the best for you too 
      G           D        Em7        C9 
Don´t forget me I beg I re-member you said 
             G                 D                     Em7    C9 
Sometimes it lasts in love but sometimes it hurts in-stead 

G              D                  Em7 C9 
Never mind I’ll find someone like you 
       G               D        Em7 C9 
I wish nothing but the best for you too 
      G           D        Em7        C9 
Don´t forget me I beg I re-member you said 
             G                 D                     Em7    C9 
Sometimes it lasts in love but sometimes it hurts in-stead 
             G                 D                     Em7    C9 
Sometimes it lasts in love but sometimes it hurts in-stead 
             G                 D                     Em7    C9 
Sometimes it lasts in love but sometimes it hurts instead 

Yeah Yeah


Enviada por Sem inscrição
Nº de acordes: 11