1,,,,,2,,,,,3,,,,,4,,,,,5,,,,,6,,,,,7,,,,,8,,,,,9,,,,,0,,,    
E   0--------4--0-----7--4--0--------4--0-----7--4--5--------->
B   0--------4--0-----7--4--0--------4--0-----7--4--5--------->
G   2--------6--2-----9--6--2--------6--2-----9--6--7---------> 
D   2--------6--2-----9--6--2--------6--2-----9--6--7--------->
A   0--------4--0-----7--4--0--------4--0-----7--4--5--------->
E   0--------4--0-----7--4--0--------4--0-----7--4--5--------->
    .        .  .     .  .  .        .  .     .  .  .
    A        Cm#A     E  Cm#A        Cm#A     E  Cm#D         

    *INTRO*



    1,,,,,2,,,,,3,,,,,4,,,,,5,,,,,6,,,,,7,,,,,8,,,,,9,,    
E   0--0--2--3--0--0--2--3--0--0--2--3--0--0--2--3--4-->
B   0--2--2--2--0--2--2--2--0--2--2--2--0--2--2--2--4-->
G   2--2--4--0--2--2--4--0--2--2--4--0--2--2--4--0--6-->
D   2--1--2--0--2--1--2--0--2--1--2--0--2--1--2--0--4-->
A   0--0--2--0--0--0--2--0--0--0--2--0--0--0--2--0--4-->
E   0--0--2--3--0--0--2--3--0--0--2--3--0--0--2--3--4-->
    .  .  .  .  .  .  .  .  .  .  .  .  .  .  .  .  .
    A  E  Bm G  A  E  Bm G  A  E  Bm G  A  E  Bm G  D

    Threw you the obvious 
    and you flew with it on your back, a 
    name in your recollection, thrown 
    down among a million same.




    1,,,,,2,,,,,3,,,,,4,,,,,5,,,,,6,,,,,7,,,,,8,,,,,9,,,,,0,,,,,1,,,,,2,,,,,    
E   0--------2--4-----------0--------2--4-----5----------------------------->
B   0--------2--4-----------0--------2--4-----5----------------------------->
G   2--------4--6-----------2--------4--6-----7----------------------------->
D   2--------2--4-----------2--------2--4-----7----------------------------->
A   0--------2--4-----------0--------2--4-----5----------------------------->
E   0--------2--4-----------0--------2--4-----5----------------------------->
    .        .  .           .        .  .     .
    A        Bm Cm#         A        Bm Cm#   D

    difficult not to feel a little bit
    disappointed and passed over 
    when i've looked right through 
    to see you naked and oblivious  and   you    don't    see     me.




    1,,,,,2,,,,,3,,,,,4,,,,,5,,,,,6,,,,,7,,,,,8,,,,,9,,    
E   0--0--2--3--0--0--2--3--0--0--2--3--0--0--2--3--4-->
B   0--2--2--2--0--2--2--2--0--2--2--2--0--2--2--2--4-->
G   2--2--4--0--2--2--4--0--2--2--4--0--2--2--4--0--6-->
D   2--1--2--0--2--1--2--0--2--1--2--0--2--1--2--0--4-->
A   0--0--2--0--0--0--2--0--0--0--2--0--0--0--2--0--4-->
E   0--0--2--3--0--0--2--3--0--0--2--3--0--0--2--3--4-->
    .  .  .  .  .  .  .  .  .  .  .  .  .  .  .  .  .
    A  E  Bm G  A  E  Bm G  A  E  Bm G  A  E  Bm G  D

    but i threw you the obvious 
    just to see if there's more behind the 
    eyes of a fallen angel, 
    the eyes of a tragedy.




    1,,,,,2,,,,,3,,,,,4,,,,,5,,,,,6,,,,,7,,,,,8,,,,,    
E   0--------2--4-----------0--------2--4-----5----->
B   0--------2--4-----------0--------2--4-----5----->
G   2--------4--6-----------2--------4--6-----7----->
D   2--------2--4-----------2--------2--4-----7----->
A   0--------2--4-----------0--------2--4-----5----->
E   0--------2--4-----------0--------2--4-----5----->
    .        .  .           .        .  .     .
    A        Bm Cm#         A        Bm Cm#   D

    here i am expecting just a little bit 
    too much from the wounded.
    but i see, see through it all, see through,
    and see you. Cause I...




    1,,,,,2,,,,,3,,,,,4,,,,,5,,,,,6,,,,,7,,,,,8,,,,,    
E   0-----0--1--0-----0--1--0-----0--1--0-----0--1-->
B   2-----3--3--2-----3--3--2-----3--3--2-----3--3-->
G   2-----2--3--2-----2--3--2-----2--3--2-----2--3-->
D   1-----0--2--1-----0--2--1-----0--2--1-----0--2-->
A   0-----1--1--0-----1--1--0-----1--1--0-----1--1-->
E   0-----0--1--0-----0--1--0-----0--1--0-----0--1-->

    E     C  F  E     C  F  E     C  F  E     C  F  

   ...threw you the obvious to 
   see what occurs behind the 
   eyes of a fallen angel, 
   eyes of a tragedy. Oh well...




    1,,,,,2,,,,,3,,,,,4,,,,,5,,,,,6,,,,,7,,,,,8,,,,,9,,,,,0,,,    
E   0--------4--0-----7--4--0--------4--0-----7--4--5--------->
B   0--------4--0-----7--4--0--------4--0-----7--4--5--------->
G   2--------6--2-----9--6--2--------6--2-----9--6--7---------> 
D   2--------6--2-----9--6--2--------6--2-----9--6--7--------->
A   0--------4--0-----7--4--0--------4--0-----7--4--5--------->
E   0--------4--0-----7--4--0--------4--0-----7--4--5--------->
    .        .  .     .  .  .        .  .     .  .  .
    A        Cm#A     E  Cm#A        Cm#A     E  Cm#D         

    (*Bridge* = same as *INTRO*)

    Oh well. Apparently nothing.
    Apparently nothing at all...




    1,,,,,2,,,,,3,,,,,4,,,,,5,,,,,6,,,,,7,,,,,8,,,,,9    
E   0--------2--4-----------0--------2--4----------->
B   0--------2--4-----------0--------2--4----------->
G   2--------4--6-----------2--------4--6----------->
D   2--------2--4-----------2--------2--4----------->
A   0--------2--4-----------0--------2--4----------->
E   0--------2--4-----------0--------2--4----------->
    .        .  .           .        .  .     
    A        Bm Cm#         A        Bm Cm#   

  
    you don't, you don't, you don't see me.
    you don't, you don't, you don't see me.
    you don't, you don't, you don't see me.
    you don't, you don't, you don't see me.    



    1,,,,,2,,,,,3,,,,,4,,,,,5,,,,,6,,,,,7,,,,,8,,   
E   0--------2--4-----------0--------2--4-----5--5.
B   0--------2--4-----------0--------2--4-----5--5.
G   2--------4--6-----------2--------4--6-----7--7.
D   2--------2--4-----------2--------2--4-----7--7.
A   0--------2--4-----------0--------2--4-----5--7.
E   0--------2--4-----------0--------2--4-----5--5.
    .        .  .           .        .  .     .
    A        Bm Cm#         A        Bm Cm#   D

  
    you don't see me. you don't... you don't... 
    you don't see me at all.



-----------------------------------------------
                 -=  Lyrics  =-
-----------------------------------------------



The official lyrics are slightly different then what Maynard sings on the
"Mer de Noms"-album. These lyrics suppose to be the 

original ones. They can be found on their website: www.aperfectcircle.com


A Perfect Circle
3 Libras
Mer de Noms 

threw you the obvious and you flew 
with it on your back, a name in your recollection, 
thrown down among a million same.
difficult not to feel a little bit disappointed 
and passed over 
when i've looked right through 
to see you naked and oblivious 
and you don't see me.
but i threw you the obvious 
just to see if there's more behind the eyes 
of a fallen angel, 
the eyes of a tragedy.
here i am expecting just a little bit 
too much from the wounded.
but i see through it all 
and see you.
so i threw you the obvious 
to see what occurs behind the eyes of a fallen angel, 
eyes of a tragedy. 
oh well. apparently nothing.
you don't see me. 
you don't see me at all.


---


Enviada por Sem inscrição
Nº de acordes: 10