Intro
e|-------------------------------------------------------------------------|
B|-------------------------------------------------------------------------|
G|-------------------------------------------------------------------------|
D|-11-11-11-11-11-11-11--9--9--9--9-11-12-11--6--6--7--7--7--9--9--9--7--7-|
A|-------------------------------------------------------------------------|
E|-------------------------------------------------------------------------|

e|-------------------------------------------------------------------------|
B|-------------------------------------------------------------------------|
G|-------------------------------------------------------------------------|
D|-7--6--11-11-11-11-11-11-11--9--9--9--9-11-12-11-6--6--7--7--7--9--------|
A|-------------------------------------------------------------------------|
E|-------------------------------------------------------------------------|

Verse (Palm Mute - Guitar 1)
e|-------------------------------------------------------------------------|
B|-------------------------------------------------------------------------|
G|-------------------------------------------------------------------------|
D|-----------11------(x14)-------------------------------------------------|
A|-9-9-9-9--9--9-----------------------------------------------------------|
E|-------------------------------------------------------------------------|

Verse (Distortion - Guitar 2)(You'll have to listen for it. Its a very short part)
e|--9--9--9--9--9--9--9----------------------------------------------------|
B|--9--9--9--9--9--9--9----------------------------------------------------|
G|-11-11-11-11-11-11-11----------------------------------------------------|
D|-11-11-11-11-11-11-11----------------------------------------------------|
A|-------------------------------------------------------------------------|
E|-------------------------------------------------------------------------|

Bridge (Guitar 1 + 2)
e|-9----9----9----9--------------------------------------------------------|
B|-9----9----9----9--------------------------------------------------------|
G|11---11---11---11--------------------------------------------------------|
D|11---11---11---11--------------------------------------------------------|
A|-9----9----9----9--------------------------------------------------------|
E|-------------------------------------------------------------------------|

Chorus (Distortion - Guitar 2) 
e|-------------------------------------------------------------------------|
B|-------------------------------------------------------------------------|
G|-------------------------------------------------------------------------|
D|-7-7-7-9-9-9-4-4-4-4-4-4-----(x2)----------------------------------------|
A|-7-7-7-9-9-9-4-4-4-4-4-4-------------------------------------------------|
E|-7-7-7-9-9-9-4-4-4-4-4-4-------------------------------------------------|

Chorus (Light Distortion - Guitar 1)
e|---9-----------9---------------------------------------------------------|
B|-----9-----------9-------------------------------------------------------|
G|-------11-------------------(x8)-----------------------------------------|
D|----------11-------------------------------------------------------------|
A|-9-----------9-----------------------------------------------------------|
E|-------------------------------------------------------------------------|

That Little Funky Part
e|-----5------7-------4----------------------------------------------------|
B|----5------7-------4-----------------------------------------------------|
G|---7------9-------6------------------------------------------------------|
D|--7------9-------6-------------(x2)--------------------------------------|
A|-5------7-------4--------------------------------------------------------|
E|---------------4---------------------------------------------------------|

That Other Little Funky Part
e|-------------------------------------------------------------------------|
B|-------------------------------------------------------------------------|
G|-------------------------------------------------------------------------|
D|------7---7-----6---6----------------------------------------------------|
A|--4-4---4---4-4---4-------5---5-----4------------------------------------|
E|----------------------5-5---5---4-4---4----------------------------------|


Cheers

| /  slide up
| \  slide down
| h  hammer-on
| p  pull-off
| ~  vibrato
| +  harmonic
| x  Mute note


Enviada por Sem inscrição
Nº de acordes: 0